KING OF HEARTS
Words & Music By Randy Stonehill
Transcribed by Brent Pacheco

This is the version from Welcome To Paradise, transcribed as closely as I could
from listening to the album.  There are some variations on the album, mostly
due to the song having more than one guitar part, but this is the basic gist
of it.  I've also added chords that can be adequately substituded rather than
playing exactly what it tabbed out.  Let me know if you find any mistakes!

Intro:

    A			     E			    D			    E

E-|-----------------------------------------------|S----------------------S-----------------------|
B-|--10----------10----------9-----------9--------|L--7----------7--------L--5-----------5--------|
G-|--------9-----------9-----------9-----------9--|I-------7-----------7--I--------4-----------4--|
D-|-----------------------------------------------|D----------------------D-----------------------|
A-|-----------------------------------------------|E----------------------E-----------------------|
E-|-----------------------------------------------|-----------------------------------------------|
     1  .  +  .  2  .  +  .  3  .  +  .  4  .  +  .  1  .  +  .  2  .  +  .  3  .  +  .  4  .  +  .

    A			     E			    D			    Am

(Repeat Then Harmony Comes In)

Intro/Chorus Harmony:

    A			     E			    D			     E

E-|--5-----------5-----------7-----------7--------|--10----------10----------12----------12-------|
B-|-----------------------------------------------|-----------------------------------------------|
G-|--------6-----------6-----------9-----------9--|--------11----------11----------13----------13-|
D-|-----------------------------------------------|-----------------------------------------------|
A-|-----------------------------------------------|-----------------------------------------------|
E-|-----------------------------------------------|-----------------------------------------------|
     1  .  +  .  2  .  +  .  3  .  +  .  4  .  +  .  1  .  +  .  2  .  +  .  3  .  +  .  4  .  +  .

(Repeat)

VERSE 1:

     A/E                     A/D#		     A/D				A/C#

E-|--------------9-----------------------7--------|--------------7-----------------------5-----4--|
B-|-----------------------------------------------|-----------------------------------------------|
G-|--------9-----------9-----------8-----------8--|--------7-----------7-----------6-----------4--|
D-|-----------------------------------------------|-----------------------------------------------|
A-|--0-----------------------0--------------------|--0-----------------------0--------------------|
E-|-----------------------------------------------|-----------------------------------------------|
     1  .  +  .  2  .  +  .  3  .  +  .  4  .  +  .  1  .  +  .  2  .  +  .  3  .  +  .  4  .  +  .

     All alone				 	     Drifting Wild			 Like  A

     D			     D			    A			    E

E-|--------------0--2--------------------0--2-----|--------------0-----------------------0--------|
B-|--------------3-----------------------3--------|--------------2-----------------------0--------|
G-|--------2--------------------------------------|--------2-----------------------1--------------|
D-|--0--------------------------------------------|-----------------------------------------------|
A-|-----------------------------------------------|--0--------------------------------------------|
E-|-----------------------------------------------|--------------------------0--------------------|
     1  .  +  .  2  .  +  .  3  .  +  .  4  .  +  .  1  .  +  .  2  .  +  .  3  .  +  .  4  .  +  .

     ship   That's Lost Out In The		     Ocean

     A/E                     A/D#		     A/D				A/C#

E-|--------------9-----------------------7--------|--------------7-----------------------5--------|
B-|-----------------------------------------------|-----------------------------------------------|
G-|--------9-----------9-----------8-----------8--|--------7-----------7-----------6--------------|
D-|-----------------------------------------------|-----------------------------------------------|
A-|--0-----------------------0--------------------|--0-----------------------0--------------------|
E-|-----------------------------------------------|-----------------------------------------------|
     1  .  +  .  2  .  +  .  3  .  +  .  4  .  +  .  1  .  +  .  2  .  +  .  3  .  +  .  4  .  +  .

     Everyone's					     A  Homeless Child			

     Bsus4		     B			     G			     E	
	
E-|-----------------------------------------------|--------3-----------------------------0--------|
B-|--5-----------5-----------4-----------4--------|--------0-----------------------------0--------|
G-|--4-----------4-----------4-----------4--------|--------0-----------------------------1--------|
D-|-----------------------------------------------|-----------------------------------------------|
A-|--2-----------2-----------2-----------2--------|-----------------------------------------------|
E-|-----------------------------------------------|--3-----------------------0--------------------|
     1  .  +  .  2  .  +  .  3  .  +  .  4  .  +  .  1  .  +  .  2  .  +  .  3  .  +  .  4  .  +  .

     And it's not hard to understand     Why we	     need a Father's hand

CHORUS:

    A			     E			    D			    A

E-|-----------------------------------------------|S----------------------S-----------------------|
B-|--10----------10----------9-----------9--------|L--7----------7--------L--5-----------5--------|
G-|--------9-----------9-----------9-----------9--|I-------7-----------7--I--------4-----------4--|
D-|-----------------------------------------------|D----------------------D-----------------------|
A-|-----------------------------------------------|E----------------------E-----------------------|
E-|-----------------------------------------------|-----------------------------------------------|
     1  .  +  .  2  .  +  .  3  .  +  .  4  .  +  .  1  .  +  .  2  .  +  .  3  .  +  .  4  .  +  .

     There's a rainbow somewhere			You were born to be there

    A			     E			    D			    E

E-|-----------------------------------------------|S----------------------S-----------------------|
B-|--10----------10----------9-----------9--------|L--7----------7--------L--5-----------5--------|
G-|--------9-----------9-----------9-----------9--|I-------7-----------7--I--------4-----------4--|
D-|-----------------------------------------------|D----------------------D-----------------------|
A-|-----------------------------------------------|E----------------------E-----------------------|
E-|-----------------------------------------------|-----------------------------------------------|
     1  .  +  .  2  .  +  .  3  .  +  .  4  .  +  .  1  .  +  .  2  .  +  .  3  .  +  .  4  .  +  .

     You're just running			     In circles

(With Harmony:)

     F#m		     C#m			    D		  Esus4          E

E-|-----------------------------------------------|S----------------------S-----------------------|
B-|--10----------10----------9-----------9--------|L--7----------7--------L--5-----------5--------|
G-|--------9-----------9-----------9-----------9--|I-------7-----------7--I--------4-----------4--|
D-|-----------------------------------------------|D----------------------D-----------------------|
A-|-----------------------------------------------|E----------------------E-----------------------|
E-|-----------------------------------------------|-----------------------------------------------|
     1  .  +  .  2  .  +  .  3  .  +  .  4  .  +  .  1  .  +  .  2  .  +  .  3  .  +  .  4  .  +  .

     Till you reach out your 			     hand to the King Of 

(First Time Through:)

   A			     

E-|--------------10-----------9----------7--------|--5--------------------------------------------|
B-|-----------------------------------------------|-----------------------------------------------|
G-|--------9--11-------9-----------7-----------6--|-----------------------------------------------|
D-|-----------------------------------------------|-----------------------------------------------|
A-|--0--------------------------------------------|-----------------------------------------------|
E-|-----------------------------------------------|-----------------------------------------------|
     1  .  +  .  2  .  +  .  3  .  +  .  4  .  +  .  1  .  +  .  2  .  +  .  3  .  +  .  4  .  +  .

     Hearts ......

VERSE 2:

     A/E                     A/D#		     A/D				A/C#

E-|--------------9-----------------------7--------|--------------7-----------------------5-----4--|
B-|-----------------------------------------------|-----------------------------------------------|
G-|--------9-----------9-----------8-----------8--|--------7-----------7-----------6-----------4--|
D-|-----------------------------------------------|-----------------------------------------------|
A-|--0-----------------------0--------------------|--0-----------------------0--------------------|
E-|-----------------------------------------------|-----------------------------------------------|
     1  .  +  .  2  .  +  .  3  .  +  .  4  .  +  .  1  .  +  .  2  .  +  .  3  .  +  .  4  .  +  .

     Carpets full			 	     of pain and tears			 That's a

     D			     D			    A			    E

E-|--------------0--2--------------------0--2-----|--------------0-----------------------0--------|
B-|--------------3-----------------------3--------|--------------2-----------------------0--------|
G-|--------2--------------------------------------|--------2-----------------------1--------------|
D-|--0--------------------------------------------|-----------------------------------------------|
A-|-----------------------------------------------|--0--------------------------------------------|
E-|-----------------------------------------------|--------------------------0--------------------|
     1  .  +  .  2  .  +  .  3  .  +  .  4  .  +  .  1  .  +  .  2  .  +  .  3  .  +  .  4  .  +  .

     load  there's just no need to 		     carry

     A/E                     A/D#		     A/D				A/C#

E-|--------------9-----------------------7--------|--------------7-----------------------5--------|
B-|-----------------------------------------------|-----------------------------------------------|
G-|--------9-----------9-----------8-----------8--|--------7-----------7-----------6--------------|
D-|-----------------------------------------------|-----------------------------------------------|
A-|--0-----------------------0--------------------|--0-----------------------0--------------------|
E-|-----------------------------------------------|-----------------------------------------------|
     1  .  +  .  2  .  +  .  3  .  +  .  4  .  +  .  1  .  +  .  2  .  +  .  3  .  +  .  4  .  +  .

     Let it go					     And leave it here

     Bsus4		     B			     G			     Esus4       E
	
E-|-----------------------------------------------|--------3-----------------0-----------0--------|
B-|--5-----------5-----------4-----------4--------|--------0-----------------0-----------0--------|
G-|--4-----------4-----------4-----------4--------|--------0-----------------2-----------1--------|
D-|-----------------------------------------------|--0-----------------------2-----------2--------|
A-|--2-----------2-----------2-----------2--------|--2-----------------------2-----------2--------|
E-|-----------------------------------------------|--3-----------------------0-----------0--------|
     1  .  +  .  2  .  +  .  3  .  +  .  4  .  +  .  1  .  +  .  2  .  +  .  3  .  +  .  4  .  +  .

     Now there's no price that's left to pay	     With one more mile or one more day

(Repeat Chorus Then):

   A				     
									     SLIDE	
E-|--------------10-----------9----------7--------|--5-----------------------7--9-----------------|
B-|-----------------------------------------------|-----------------------------------------------|
G-|--------9--11-------9-----------7-----------6--|--------------------------7--9-----------------|
D-|-----------------------------------------------|-----------------------------------------------|
A-|--0--------------------------------------------|-----------------------------------------------|
E-|-----------------------------------------------|-----------------------------------------------|
     1  .  +  .  2  .  +  .  3  .  +  .  4  .  +  .  1  .  +  .  2  .  +  .  3  .  +  .  4  .  +  .

     Hearts ......

BRIDGE:

    D			     D/C#		    Bm			     Asus4

E-|-----------------------------------------------|-----------------------------------------------|
B-|--------------3-----------------------3--------|--------------3-----------------------3--------|
G-|--------2-----------2-----------2-----------2--|--------2-----------2-----------2-----------2--|
D-|--0--------------------------------------------|-----------------------------------------------|
A-|--------------------------4--------------------|--2-----------------------0--------------------|
E-|-----------------------------------------------|-----------------------------------------------|
     1  .  +  .  2  .  +  .  3  .  +  .  4  .  +  .  1  .  +  .  2  .  +  .  3  .  +  .  4  .  +  .
   
     You can try to catch the 			     wind    But in the end you're only 


    G		             Gmaj7		     F#sus4		     F#	

E-|--3-----------------2-----------2-----2-----2--|--------------2-----------------2-----2--2-----|
B-|--0-----------------0-----------0-----0-----0--|--------2-----------------2-----------2--------|
G-|--0-----------------0-----------0-----0-----0--|--4-----------------4-----3-----------3--------|
D-|--0-----------------------------0-----0-----0--|-----------------------------------------------|
A-|--2-----------------------------2-----2-----2--|-----------------------------------------------|
E-|--3-----------------------------3-----3-----3--|--2-----------------------2-----------------4--2
     1  .  +  .  2  .  +  .  3  .  +  .  4  .  +  .  1  .  +  .  2  .  +  .  3  .  +  .  4  .  +  .

    Wasting  prescious				     time

   D			     D/C#		    Bm			     Asus4

E-|-----------------------------------------------|-----------------------------------------------|
B-|--------------3-----------------------3--------|--------------3-----------------------3--------|
G-|--------2-----------2-----------2-----------2--|--------2-----------2-----------2-----------2--|
D-|--0--------------------------------------------|-----------------------------------------------|
A-|--------------------------4--------------------|--2-----------------------0--------------------|
E-|-----------------------------------------------|-----------------------------------------------|
     1  .  +  .  2  .  +  .  3  .  +  .  4  .  +  .  1  .  +  .  2  .  +  .  3  .  +  .  4  .  +  .
   
     And life can really be so 			     kind	Once you find the truth and	


   Esus4	       E			     Esus4		    E

E-|--0-----------------0-----0--------------------|--0-----------------0-----0--------------------|
B-|--0-----------------0-----0--------------------|--0-----------------0-----0--------------------|
G-|--2-----------------1-----1--------------------|--2-----------------1-----1-----------1--------|
D-|--2-----------------2-----2--------------------|--2-----------------2-----2--------------------|
A-|--2-----------------2-----2--------------------|--2-----------------2-----2--------------------|
E-|--0-----------------0-----0--------------------|--0-----------------0-----0--------------------|
     1  .  +  .  2  .  +  .  3  .  +  .  4  .  +  .  1  .  +  .  2  .  +  .  3  .  +  .  4  .  +  .

     Follow....					     Go on follow...

   Esus4	       			             E

E-|--0-----------0-----------0-----------0--------|--0--------------------------------------------|
B-|--0-----------0-----------0-----------0--------|--0--------------------------------------------|
G-|--2-----------2-----------2-----------2--------|--1--------------------------------------------|
D-|--2-----------2-----------2-----------2--------|--2--------------------------------------------|
A-|--2-----2-----2-----2-----2-----2-----2-----2--|--2--------------------------------------------|
E-|--0-----0-----0-----0-----0-----0-----0-----0--|--0--------------------------------------------|
     1  .  +  .  2  .  +  .  3  .  +  .  4  .  +  .  1  .  +  .  2  .  +  .  3  .  +  .  4  .  +  .

     Go on Follow....					    

VERSE 1:

     A/E                     A/D#		     A/D				A/C#

E-|--------------9-----------------------7--------|--------------7-----------------------5-----4--|
B-|-----------------------------------------------|-----------------------------------------------|
G-|--------9-----------9-----------8-----------8--|--------7-----------7-----------6-----------4--|
D-|-----------------------------------------------|-----------------------------------------------|
A-|--0-----------------------0--------------------|--0-----------------------0--------------------|
E-|-----------------------------------------------|-----------------------------------------------|
     1  .  +  .  2  .  +  .  3  .  +  .  4  .  +  .  1  .  +  .  2  .  +  .  3  .  +  .  4  .  +  .

     All alone				 	     Drifting wild			 Like  a

     D			     D			    A			     E

E-|--------------0--2--------3--2--------0--2-----|---------0----------0-----------0--------------|
B-|--------------3-----------3-----------3--------|-----2--------3--2--0-----------------0--------|
G-|--------2-----------------------3--------------|--2-----------------1-----------------------1--|
D-|--0--------------------------------------------|--------------------0--------------------------|
A-|-----------------------------------------------|--0--------------------------------------------|
E-|-----------------------------------------------|-----------------------------------------------|
     1  .  +  .  2  .  +  .  3  .  +  .  4  .  +  .  1  .  +  .  2  .  +  .  3  .  +  .  4  .  +  .

     ship   That's Lost Out In The		     Ocean

     A/E                     A/D#		     A/D				A/C#

E-|--------------9-----------------------7--------|--------------7-----------------------5--------|
B-|-----------------------------------------------|-----------------------------------------------|
G-|--------9-----------9-----------8-----------8--|--------7-----------7-----------6--------------|
D-|-----------------------------------------------|-----------------------------------------------|
A-|--0-----------------------0--------------------|--0-----------------------0--------------------|
E-|-----------------------------------------------|-----------------------------------------------|
     1  .  +  .  2  .  +  .  3  .  +  .  4  .  +  .  1  .  +  .  2  .  +  .  3  .  +  .  4  .  +  .

     Everyone's					     A  Homeless Child			

     Bsus4		     B			     G			     Esus4       E	
	
E-|-----------------------------------------------|--------3-----------------0-----------0--------|
B-|--5-----------5-----------5--4--------4--------|--------0-----------------0-----------0--------|
G-|--4-----------4-----------4--4--------4--------|--------0-----------------2-----------1--------|
D-|-----------------------------------------------|--0-----------------------2-----------2--------|
A-|--2-----------2-----------2--2--------2--------|--2-----------------------2-----------2--------|
E-|--------------------------------------------0--2--3-----------------------0-----------0--------|
     1  .  +  .  2  .  +  .  3  .  +  .  4  .  +  .  1  .  +  .  2  .  +  .  3  .  +  .  4  .  +  .

     And it's not hard to understand     Why we	     need a Father's hand


FINAL CHORUS:

    A			     E			    D			    A

E-|-----------------------------------------------|S----------------------S-----------------------|
B-|--10----------10----------9-----------9--------|L--7----------7--------L--5-----------5--------|
G-|--------9-----------9-----------9-----------9--|I-------7-----------7--I--------4-----------4--|
D-|-----------------------------------------------|D----------------------D-----------------------|
A-|-----------------------------------------------|E----------------------E-----------------------|
E-|-----------------------------------------------|-----------------------------------------------|
     1  .  +  .  2  .  +  .  3  .  +  .  4  .  +  .  1  .  +  .  2  .  +  .  3  .  +  .  4  .  +  .

     There's a rainbow somewhere			You were born to be there

    A			     E			    D			    E

E-|-----------------------------------------------|S----------------------S-----------------------|
B-|--10----------10----------9-----------9--------|L--7----------7--------L--5-----------5--------|
G-|--------9-----------9-----------9-----------9--|I-------7-----------7--I--------4-----------4--|
D-|-----------------------------------------------|D----------------------D-----------------------|
A-|-----------------------------------------------|E----------------------E-----------------------|
E-|-----------------------------------------------|-----------------------------------------------|
     1  .  +  .  2  .  +  .  3  .  +  .  4  .  +  .  1  .  +  .  2  .  +  .  3  .  +  .  4  .  +  .

     You're just running			     In circles


(With Harmony Part:)

     F#m		     C#m			    D		  Esus4          E

E-|-----------------------------------------------|S----------------------S-----------------------|
B-|--10----------10----------9-----------9--------|L--7----------7--------L--5-----------5--------|
G-|--------9-----------9-----------9-----------9--|I-------7-----------7--I--------4-----------4--|
D-|-----------------------------------------------|D----------------------D-----------------------|
A-|-----------------------------------------------|E----------------------E-----------------------|
E-|-----------------------------------------------|-----------------------------------------------|
     1  .  +  .  2  .  +  .  3  .  +  .  4  .  +  .  1  .  +  .  2  .  +  .  3  .  +  .  4  .  +  .

     Till you reach out your 			     hand

     F#m		     C#m			    D		  Esus4          E

E-|-----------------------------------------------|S----------------------S-----------------------|
B-|--10----------10----------9-----------9--------|L--7----------7--------L--5-----------5--------|
G-|--------9-----------9-----------9-----------9--|I-------7-----------7--I--------4-----------4--|
D-|-----------------------------------------------|D----------------------D-----------------------|
A-|-----------------------------------------------|E----------------------E-----------------------|
E-|-----------------------------------------------|-----------------------------------------------|
     1  .  +  .  2  .  +  .  3  .  +  .  4  .  +  .  1  .  +  .  2  .  +  .  3  .  +  .  4  .  +  .

     Till you reach out your 			     hand

     F#m		     C#m			    D		  Esus4          E

E-|-----------------------------------------------|S----------------------S-----------------------|
B-|--10----------10----------9-----------9--------|L--7----------7--------L--5-----------5--------|
G-|--------9-----------9-----------9-----------9--|I-------7-----------7--I--------4-----------4--|
D-|-----------------------------------------------|D----------------------D-----------------------|
A-|-----------------------------------------------|E----------------------E-----------------------|
E-|-----------------------------------------------|-----------------------------------------------|
     1  .  +  .  2  .  +  .  3  .  +  .  4  .  +  .  1  .  +  .  2  .  +  .  3  .  +  .  4  .  +  .

     Till you reach out your 			     hand to the King Of 

    A			     E			    D			    E

E-|-----------------------------------------------|S----------------------S-----------------------|
B-|--10----------10----------9-----------9--------|L--7----------7--------L--5-----------5--------|
G-|--------9-----------9-----------9-----------9--|I-------7-----------7--I--------4-----------4--|
D-|-----------------------------------------------|D----------------------D-----------------------|
A-|-----------------------------------------------|E----------------------E-----------------------|
E-|-----------------------------------------------|-----------------------------------------------|
     1  .  +  .  2  .  +  .  3  .  +  .  4  .  +  .  1  .  +  .  2  .  +  .  3  .  +  .  4  .  +  .

     Hearts ......

    A			     E			    D			    E

E-|-----------------------------------------------|S----------------------S-----------------------|
B-|--10----------10----------9-----------9--------|L--7----------7--------L--5-----------5--------|
G-|--------9-----------9-----------9-----------9--|I-------7-----------7--I--------4-----------4--|
D-|-----------------------------------------------|D----------------------D-----------------------|
A-|-----------------------------------------------|E----------------------E-----------------------|
E-|-----------------------------------------------|-----------------------------------------------|
     1  .  +  .  2  .  +  .  3  .  +  .  4  .  +  .  1  .  +  .  2  .  +  .  3  .  +  .  4  .  +  .

     There's a rainbow somewhere...