HYMN
Words & Music By Randy Stonehill
 1985 Stonehillian Music/Word Music (a div. of Word, Inc.)/ASCAP
Transcribed by Peter Yang

Send comments/fixes/etc to psyang@neumann.uwaterloo.ca

Notation:
Pretty basic stuff in this song. I use the following symbols:
h: hammer-on
p: pull-off
^: strum from bass to high e
v: strum from high e to bass
/: slide
x: muffed/muted string

This was taken off the album Until We Have Wings so if another
version (ie. studio mixed) is out there, it may differ somewhat.
Hopefully there are no mistakes, but give me a shout if you find
any. I've tried to list chords and put in most of the lyrics so you
can get a feel of 'where you are' in the song. I numbered each 'phrase'
(ie. about every two bars) so that reference to specific bars can be made
easier. Enjoy!

Intro: 

1:
                                             ^
E-|------------0-----0-----0--|--------0-----0-----------|
B-|--------4h5----4-----2-----|--0--------0--0-----0h2---|
G-|--------4------4-----2-----|--1-----------2--2--------|
D-|---------------------------|-----2--------2-----------|
A-|---------------------------|--------------0-----------|
E-|--0------------------------|--------------------------|
     1  .  2   .  3  .  4  .     1  .  2  .  3  .  4  .

2:

E-|------------0-----0-----0--|--------0-----0------------|
B-|--------4h5----4-----2-----|--0--------0--0h2---0---0--|
G-|--------4------4-----2-----|--1-----------2-------2----|
D-|---------------------------|-----2--------2------------|
A-|---------------------------|--------------0------------|
E-|--0------------------------|---------------------------|
     1  .  2   .  3  .  4  .     1  .  2  .  3 . . . 4  .


Verse:

3:   E           F#m            A           Bsus  B

E-|---------------------------|--------------------------|
B-|------------0-----------2--|-----------2--5-----4-----|
G-|---------1-----------2-----|--------2--------4-----4--|
D-|-----2------------4--------|-----2--------------------|
A-|---------------------------|--0-----------2-----------|
E-|--0------------2-----------|--------------------------|
     1  .   2  .  3  .  4  .     1  .  2  .  3  .  4  .
          In this land  of the   walk -ing   woun -ded


4:   B9    Bsus  E              F#m         A

E-|-----------0--------------|--------------------------|
B-|--2-----4--------------0--|-----------2-----------2--|
G-|-----4--------------1-----|--------2-----------2-----|
D-|-----------------2--------|-----4-----------2--------|
A-|--------------------------|--------------0-----------|
E-|--------------0-----------|--2-----------------------|
     1  .  2  .  3  .  4  .     1  .  2  .  3  .  4  .
                      In this   desert  of  count-less


5:   Bsus  B                    F#m         C#m

E-|--------------------------|--------------------------|
B-|--5-----------4-----------|-----------2-----------5--|
G-|-----4-----4-----4--------|--------2-----------6-----|
D-|--------4----------4------|-----4-----------6--------|
A-|--2-----------------------|--------------4-----------|
E-|-----------------------0--|--2-----------------------|
     1  .  2  .  3  .  4  .     1  .  2  .  3  .  4  .
     sor     -   rows                I will cling to his

   
6:   A           B                          C#m   C#9

E-|--------------------------|--------------------------|
B-|-----------2--------------|--4--------4--5-----4-----|
G-|--------2-----------4-----|--------4-----------------|
D-|-----2-----------4-----4--|-----4-----------6-----6--|
A-|--0-----------2-----------|--------------4-----------|
E-|--------------------------|--------------------------|
     1  .  2  .  3  .  4  .     1  .  2  .  3  .  4  .
     hand     to-day                    and heed  not

7:   C#m   C#m7  Bsus           B

E-|--------------------------|--------------------------|
B-|--------------5-----------|--4--------------------4--|
G-|--6-----4--------4-----4--|-----4-----4--------4-----|
D-|-----6--------------4-----|--------4--------4--------|
A-|--------------2-----------|--------------2-----------|
E-|--------------------------|--------------------------|
     1  .  2  .  3  .  4  .     1  .  2  .  3  .  4  .
     for   to -  mor    -       row

8:   B
     ^
E-|-----------0--|
B-|--4--2--4-----|
G-|--4-----------|
D-|--4-----------|   
A-|--2-----------|  
E-|--------------|   
     1  .  2  . 

For next part of verse, repeat phrases 3-6 (ie. for the part:
'In my heart I have made this promise...Shepherd leads and heed no' )


9:   C#m         B                          F#m
                          ^        ^  <- rhythmic muffed strum - Randy does
E-|--------------------------|--------------------------| this a lot in his
B-|-----------------------4--|-----4--------------------| songs. Do what
G-|--6-----4--------------4--|-----4--------------2-----| feels/sounds right
D-|-----6-----6--------4--4--|--4--4-----------4-----4--| to you.
A-|--------------2-----------|--------------------------|
E-|--------------------------|-----------0--2-----------|
     1  .  2  .  3  .  4  .     1  .  2  .  3  .  4  .
     oth - er       voi   -     ce                In the

10:              C#m                        D       E

E-|--------------------------|----------------------2/4--|
B-|--2-----------------4-----|--4h5-----------------3/5--|
G-|--------2-----6-----------|---------6--------2--------|
D-|-----4-----4-----6-----6--|------6--------0-----------|
A-|--------------4-----------|---------------------------|
E-|--------------------------|---------------------------|
     1  .  2  .  3  .  4  .     1   .  2  .  3  .  4  .
     chill of my dark - est     ho  -  ur          I am

11:              F#m                        G

E-|--5-----4-----------------|--2-----------------------|
B-|-----5--------------2-----|--------2-----------------|
G-|-----------------2-----2--|-----2--------------4-----|
D-|--------------------------|-----------------5--------|
A-|--------------------------|--------------------------|
E-|--------------2-----------|-----------2--3--------3--|
     1  .  2  .  3  .  4  .     1  .  2  .  3  .  4  .
     saved from my deep despair                   For the

12:              F#m                        Bsus
                                            ^     ^  ^ <- Randy's strum again
E-|--------------------------|--------------------------|
B-|-----------------------2--|--------------5-----5--5--|
G-|--------4-----------2-----|--------2-----4-----4--4--|
D-|-----5-----------4--------|-----4--------4-----4--4--|
A-|--------------------------|--------------2-----2--2--|
E-|--------------2--------2--|--------------------------|
     1  .  2  .  3  .  4  .     1  .  2  .  3  .  4  .
     Father who  loves His  children        hears    my

13:  Bsus
     ^     ^  ^  ^     ^  ^     ^     ^
E-|--------------------------|--------------|            
B-|--5-----5--5--5-----5--5--|--5-----5-----|
G-|--4-----4--4--4-----4--4--|--4-----4-----|            
D-|--4-----4--4--4-----4--4--|--4-----4-----|
A-|--2-----2--2--2-----2--2--|--2-----2-----|            
E-|--------------------------|--------------|
     1  .  2  .  3  .  4  .     1  .  2  .              
     tru - sting    pray        -     er

Repeat phrase 1

14:

E-|------------0-----0-----0--|--------0------------------|
B-|--------4h5----4-----2-----|--0--------0--0h2-0-----0--|
G-|--------4------4-----2-----|--1-----------2------2-----|
D-|---------------------------|-----2--------2------------|
A-|---------------------------|---------------------------|
E-|--0------------------------|---------------------------|
     1  .  2   .  3  .  4  .     1  .  2  .  3   .  4  .

Bridge: Lot's of rhythmic strumming. Instead of looking at my tab,
        just read the chords, and listen to/imitate Randy's style.

15:  E           F#m            A9
     ^     ^  ^        ^  ^     ^     ^  ^  ^     ^  ^
E-|--------x--x--------x--x--|--0-----x--x--0-----x--0--|
B-|--------x--x--------x--x--|--0-----x--x--0-----x--0--|
G-|--1-----x--x--2-----x--x--|--2-----x--x--2-----x--2--|
D-|--2-----x--x--4-----x--x--|--2-----x--x--2-----x--2--|
A-|--2-----x--x--4-----x--x--|--0-----x--x--0-----x--0--|
E-|--0-----x--x--2-----x--x--|--------x--x--------x-----|
     1  .  2  .  3  .  4  .     1  .  2  .  3  .  4  .
              Oh-oh       oh -  oh

16:  E           F#m            A           B
     ^     ^  ^  ^     ^  ^     ^     ^  ^  ^     ^
E-|--------x--x--------x--x--|--0-----x--x--2-----x-----|
B-|--------x--x--------x--x--|--2-----x--x--4-----x-----|
G-|--1-----x--x--2-----x--x--|--2-----x--x--4-----x-----|
D-|--2-----x--x--4-----x--x--|--2-----x--x--4-----x-----|
A-|--2-----x--x--4-----x--x--|--0-----x--x--2-----x-----|
E-|--0-----x--x--2-----x--x--|--------x--x--2-----x--2--|
     1  .  2  .  3  .  4  .     1  .  2  .  3  .  4  .
              Oh-oh       oh -  oh    -     oh

17:  F#m         C#m            A           B
     ^     ^  ^  ^     ^  ^     ^     ^  ^  ^     ^  ^
E-|--------x--x--------x--x--|--------x--x--------x--x--|
B-|--------x--x--------x--x--|--------x--x--------x--x--|
G-|--2-----x--x--6-----x--x--|--2-----x--x--4-----x--x--|
D-|--4-----x--x--6-----x--x--|--2-----x--x--4-----x--x--|
A-|--4-----x--x--4-----x--x--|--0-----x--x--2-----x--x--|
E-|--2-----x--x--4-----x--x--|--0-----x--x--2-----x--x--|
     1  .  2  .  3  .  4  .     1  .  2  .  3  .  4  .
              Oh-oh    etc. (these oh's continue through this section)
                            (I was feeling silly putting them all in)

18:  C#m
                                 
E-|--------------------------|---------------------------|
B-|--5-----4-----------------|-----------4--4h5p4--------|
G-|--------------6-----4--6--|--6-----6------------6-----|
D-|-----6-----6-----6--------|-----6------------------6--|
A-|--4-----------------------|--4------------------------|
E-|--------------------------|---------------------------|
     1  .  2  .  3  .  4  .     1  .  2  .  3   .  4  .

19:  A9
           ^  ^  ^     ^  ^     ^     ^  ^  ^     ^  ^
E-|--------x--x--------x--x--|--------x--x--------x--x--|
B-|--------x--x--0-----x--x--|--0-----x--x--0-----x--x--|
G-|--------x--x--2-----x--x--|--2-----x--x--2-----x--x--|
D-|--------x--x--2-----x--x--|--2-----x--x--2-----x--x--|
A-|--0-----x--x--0-----x--x--|--0-----x--x--0-----x--x--|
E-|--------x--x--0-----x--x--|--0-----x--x--0-----x--x--|
     1  .  2  .  3  .  4  .     1  .  2  .  3  .  4  .

20:  C#m

E-|--------------------------|--------------------------|
B-|--5-----4-----------------|--5-----4-----------------|
G-|--------------6-----4--6--|--------------6-----4--6--|
D-|-----6-----6-----6--------|-----6-----6-----6--------|
A-|--4-----------------------|--4-----------------------|
E-|--------------------------|--------------------------|
     1  .  2  .  3  .  4  .     1  .  2  .  3  .  4  .

21:  A9                         B
           ^  ^  ^     ^  ^     ^     ^  ^  ^     ^  ^
E-|--------x--x--------x--x--|--------x--x--------x--x--|
B-|--------x--x--0-----x--x--|--4-----x--x--4-----x--x--|
G-|--------x--x--2-----x--x--|--4-----x--x--4-----x--x--|
D-|--------x--x--2-----x--x--|--4-----x--x--4-----x--x--|
A-|--0-----x--x--0-----x--x--|--2-----x--x--2-----x--x--|
E-|--------x--x--0-----x--x--|--2-----x--x--2-----x--x--|
     1  .  2  .  3  .  4  .     1  .  2  .  3  .  4  .

22:  B
     ^     ^  ^  ^  ^  ^
E-|--------x--x-----x--x-----|
B-|--4-----x--x--4--x--x-----|                           
G-|--4-----x--x--4--x--x-----|
D-|--4-----x--x--4--x--x-----|                            
A-|--2-----x--x--2--x--x-----|
E-|--2-----x--x--2--x--x-----|                            
     1  .  2  .  3  .  4  .                           

23:  A                          B
     ^     ^  ^  ^     ^  ^     ^     ^  ^  ^     ^  ^
E-|--------x--x--------x--x--|--------x--x--------x--x--|
B-|--2-----x--x--2-----x--x--|--4-----x--x--4-----x--x--|
G-|--2-----x--x--2-----x--x--|--4-----x--x--4-----x--x--| (repeat 2x)
D-|--2-----x--x--2-----x--x--|--4-----x--x--4-----x--x--|            
A-|--0-----x--x--0-----x--x--|--2-----x--x--2-----x--x--| (This section
E-|--0-----x--x--0-----x--x--|--2-----x--x--2-----x--x--| has Randy singing
     1  .  2  .  3  .  4  .     1  .  2  .  3  .  4  .    the 'Oh' part again
                                                          just before the 
24:  A                                                    section ends)

E-|--0-----------------------|---------------------------|
B-|--2-----------------------|---------------------------|
G-|--2-----------------------|---------------------------|
D-|--2-----------------------|------------------------2--|
A-|--0-----------------------|--------------------2h4----|
E-|--0-----------------------|---------------------------|
     1  .  2  .  3  .  4  .     1  .  2  .  3  .  4   .

25: 
                                             ^
E-|-----------0-----0-----0--|--------0-----0---------0--|
B-|--------5-----4-----2-----|--0--------0--0-----0h2----|
G-|--------4-----4-----2-----|--1-----------2--2---------|
D-|--------------------------|-----2--------2------------|
A-|--------------------------|--------------0------------|
E-|--0-----------------------|---------------------------|
     1  .  2  .  3  .  4  .     1  .  2  .  3  .  4   .

26:  E                          A9

E-|--------------0-----------|--------------0-----------|
B-|--------0-----------0-----|--------0-----------0-----|
G-|-----1-----1-----1-----1--|-----2-----2-----2-----2--|
D-|--------------------------|--------------------------|
A-|--------------------------|--------------------------|
E-|--0-----------------------|--0-----------------------|
     1  .  2  .  3  .  4  .     1  .  2  .  3  .  4  .

27:  E           F#m            A           Bsus  B
                                                   ^  ^ <- muffed sort of.
E-|---------------------------|--------------------------|
B-|------------0-----------2--|-----------2--5-----------|
G-|---------1-----------2-----|--------2-----------4--4--|
D-|-----2------------4--------|-----2--------------4--4--|
A-|---------------------------|--0-----------2-----------|
E-|--0------------2-----------|--------------------------|
     1  .   2  .  3  .  4  .     1  .  2  .  3  .  4  .
            In my soul  there is one light   shi -    


28:  B9    Bsus  E              F#m         A
               
E-|--------2-----------------|--------------------------|
B-|--4--------4-----------0--|-----------2-----------2--|
G-|-----4--------------1-----|--------2-----------2-----|
D-|-----------------2--------|-----4-----------2--------|
A-|--2-----------------------|--------------0-----------|
E-|--------------0-----------|--2-----------------------|
     1  .  2  .  3  .  4  .     1  .  2  .  3  .  4  .
     ning             From the  flame of my true     be-


29:  Bsus  B                    F#m         C#m
              ^     ^           ^     ^  ^        ^  ^
E-|-----------x-----x--------|--------x--x--------x--x--|
B-|--------5--x--5--x--4-----|--------x--x--5-----x--x--|
G-|--------4--x--4--x--4-----|--2-----x--x--6-----x--x--|
D-|-----4-----x-----x--------|--4-----x--x--6-----x--x--|
A-|--2--------x-----x--------|--4-----x--x--4-----x--x--|
E-|-----------x-----x-----2--|--2-----x--x--4-----x--x--|
     1  .  2  .  3  .  4  .     1  .  2  .  3  .  4  .
     lief    -   rows   (yeah)    And its   embers   can-


30:  A           B              C#m                   
                                   ^     ^
E-|--------------------------|-----x-----x--------------|
B-|--------2-----4-----------|--5--x--5--x--5-----------|
G-|--------2--2--4-----------|-----x--6--x--6-----------|
D-|-----2--------4-----------|-----x--6--x--6-----------|
A-|--0-----------2-----------|--4--x--4--x--4-----------|
E-|--------------------------|-----x-----x--------------|
     1  .  2  .  3  .  4  .     1  .  2  .  3  .  4  .
     not   be    quenched or    robbed by   any      

31:  Bsus        B               
     ^     ^  ^  ^    ^  ^
E-|--------x--x--------x--x--|                           
B-|--5-----x--x--4-----x--x--|                           
G-|--4-----x--x--4-----x--x--|                           
D-|--4-----x--x--4-----x--x--|                           
A-|--2-----x--x--2-----x--x--|                           
E-|--------x--x--------x--x--|                           
     1  .  2  .  3  .  4  .                           
     thief             (no no)     

For the first part of the next stanza,
(ie. In the end we are not... and our journey is not in), repeat phrases 3, 
4 and half of 3 again then do the following:

32:  Bsus                       B        B9    B
     ^     ^  ^  ^     ^  ^     ^  ^  ^  ^     ^  ^
E-|--------x--x--------x--x--|--------------------------|
B-|--5-----x--x--5-----x--x--|--4--4--4--2-----4--4-----|
G-|--4-----x--x--4-----x--x--|--4--4--4--4-----4--4-----|
D-|--4-----x--x--4-----x--x--|--4--4--4--4-----4--4-----|
A-|--2-----x--x--2-----x--x--|--2--2--2--2-----2--2-----|
E-|--------x--x--------x--x--|-----------------------0--|
     1  .  2  .  3  .  4  .     1  .  2  .  3  .  4  .
     vain

33:  F#m         C#m            A           B
     ^     ^                                ^
E-|--------x-----------------|--------------------------|
B-|--------x-----------5-----|--------2-----------------|
G-|--2-----x-----------6-----|--------2-----4-----------|
D-|--4-----x--------6-----6--|-----2-----2--4-----------|
A-|--4-----x-----4-----------|--0-----------2-----------|
E-|--2-----x-----------------|--------------------------|
     1  .  2  .  3  .  4  .     1  .  2  .  3  .  4  .
          For the Master  who   brought us  here -   will

34:  C#m

E-|--------------------------|---------------------------|
B-|--5-----4-----------------|---------------------------|
G-|--------------6--4--------|--------4--4---------4-----|
D-|-----6-----6-----------6--|--------------4h6-6-----6--|
A-|--4-----------------4-----|--4------------------------|
E-|--------------------------|---------------------------|
     1  .  2  .  3  .  4  .     1  .  2  .  3   .  4  .
     lead  us                   home

35:  C#m                                          B
                                ^  ^  ^     ^     ^
E-|--------------------------|--------x-----------------|
B-|--5-----4-----------------|--5--5--x-----5-----4-----|
G-|--------------6--4-----4--|--6--6--x-----6-----4-----|
D-|-----6-----6--------6-----|--6--6--x-----6-----4-----|
A-|--4-----------------------|--4--4--x-----4-----2-----|
E-|--------------------------|--4--4--x-----4-----2-----|
     1  .  2  .  3  .  4  .     1  .  2  .  3  .  4  .
     lead  us                   ho  -       o  -  me

36:  A                          B
     ^     ^  ^  ^     ^  ^     ^     ^  ^        ^  ^
E-|--------x--x--------x--x--|--------x--x--------x--x--|
B-|--2-----x--x--2-----x--x--|--4-----x--x--4-----x--x--|
G-|--2-----x--x--2-----x--x--|--4-----x--x--4-----x--x--| (repeat 1x)
D-|--2-----x--x--2-----x--x--|--4-----x--x--4-----x--x--|
A-|--0-----x--x--0-----x--x--|--2-----x--x--2-----x--x--|
E-|--------x--x--------x--x--|--2-----x--x--2-----x--x--|
     1  .  2  .  3  .  4  .     1  .  2  .  3  .  4  .

37:  A                          B

     ^     ^  ^  ^     ^  ^     ^                     
E-|--------x--x--------x--x--|--2-----------------------|
B-|--2-----x--x--2-----x--x--|--4-----------------------|
G-|--2-----x--x--2-----x--x--|--4-----------------------|            
D-|--2-----x--x--2-----x--x--|--4-----------------------|
A-|--0-----x--x--0-----x--x--|--2-----------------------|
E-|--------x--x--------x--x--|--2-----------------------|
     1  .  2  .  3  .  4  .     1  .  2  .  3  .  4  .
     Lead        us             home -            again.

38:                                         A9    A
                                            ^     v                      
E-|-----------0-----0-----0--|--------0-----0-----0------|                 
B-|--------5-----4-----2-----|--0--------0--0-----2------|                  
G-|--------4-----4-----2-----|--1-----------2-----2------|
D-|--------------------------|-----2--------2------------|
A-|--------------------------|--------------0------------|
E-|--0-----------------------|---------------------------|
     1  .  2  .  3  .  4  .     1  .  2  .  3  .  4   .

39:  E                                      E
                                            ^
E-|--------------------------|--2h-4--------0------------|
B-|--------------------------|--------------0------------|
G-|--------------------------|--------------1------------|
D-|-----------------2--------|--------------2------------|
A-|-----------0--2--2--------|--------------2------------|
E-|--0-----0--0--0-----0-----|--0-----------0------------|
     1  .  2  .  3  .  4  .     1  .  2  .  3  .  4   .